ISO-10303-21;
HEADER;
/* Generated by software containing ST-Developer
 * from STEP Tools, Inc. (www.steptools.com) 
 */

FILE_DESCRIPTION(
/* description */ (''),
/* implementation_level */ '2;1');

FILE_NAME(
/* name */ 
'X:\\VIRI ZA WEB\\CAD DATOTEKE\\LINEARNE ENOTE UNIMOTION\\DODATNA OPRE
MA ZA LINEARNE ENOTE\\POVEZOVALNI ELEMENTI\\PRITRDILNE SPONE\\PRITRDIL
NA SPONA CTJ 200 L= 108 M8 B\\izvoz\\CAD_53051.stp',
/* time_stamp */ '2016-04-09T08:28:23+02:00',
/* author */ ('Hypex'),
/* organization */ ('Hypex'),
/* preprocessor_version */ 'ST-DEVELOPER v16.1',
/* originating_system */ 'Autodesk Inventor 2016',
/* authorisation */ '');

FILE_SCHEMA (('AUTOMOTIVE_DESIGN { 1 0 10303 214 3 1 1 }'));
ENDSEC;

DATA;
#10=MECHANICAL_DESIGN_GEOMETRIC_PRESENTATION_REPRESENTATION('',(#13),#583);
#11=SHAPE_REPRESENTATION_RELATIONSHIP('SRR','None',#592,#12);
#12=ADVANCED_BREP_SHAPE_REPRESENTATION('',(#14),#582);
#13=STYLED_ITEM('',(#601),#14);
#14=MANIFOLD_SOLID_BREP('Solid1',#359);
#15=CYLINDRICAL_SURFACE('',#370,7.5);
#16=CYLINDRICAL_SURFACE('',#371,4.25);
#17=CYLINDRICAL_SURFACE('',#376,7.5);
#18=CYLINDRICAL_SURFACE('',#377,4.25);
#19=FACE_BOUND('',#59,.T.);
#20=FACE_BOUND('',#60,.T.);
#21=FACE_BOUND('',#64,.T.);
#22=FACE_BOUND('',#66,.T.);
#23=FACE_BOUND('',#68,.T.);
#24=FACE_BOUND('',#70,.T.);
#25=FACE_BOUND('',#72,.T.);
#26=FACE_BOUND('',#74,.T.);
#27=FACE_BOUND('',#77,.T.);
#28=FACE_BOUND('',#78,.T.);
#29=CIRCLE('',#363,7.5);
#30=CIRCLE('',#364,7.5);
#31=CIRCLE('',#368,7.5);
#32=CIRCLE('',#369,4.25);
#33=CIRCLE('',#372,4.25);
#34=CIRCLE('',#374,7.5);
#35=CIRCLE('',#375,4.25);
#36=CIRCLE('',#378,4.25);
#37=FACE_OUTER_BOUND('',#57,.T.);
#38=FACE_OUTER_BOUND('',#58,.T.);
#39=FACE_OUTER_BOUND('',#61,.T.);
#40=FACE_OUTER_BOUND('',#62,.T.);
#41=FACE_OUTER_BOUND('',#63,.T.);
#42=FACE_OUTER_BOUND('',#65,.T.);
#43=FACE_OUTER_BOUND('',#67,.T.);
#44=FACE_OUTER_BOUND('',#69,.T.);
#45=FACE_OUTER_BOUND('',#71,.T.);
#46=FACE_OUTER_BOUND('',#73,.T.);
#47=FACE_OUTER_BOUND('',#75,.T.);
#48=FACE_OUTER_BOUND('',#76,.T.);
#49=FACE_OUTER_BOUND('',#79,.T.);
#50=FACE_OUTER_BOUND('',#80,.T.);
#51=FACE_OUTER_BOUND('',#81,.T.);
#52=FACE_OUTER_BOUND('',#82,.T.);
#53=FACE_OUTER_BOUND('',#83,.T.);
#54=FACE_OUTER_BOUND('',#84,.T.);
#55=FACE_OUTER_BOUND('',#85,.T.);
#56=FACE_OUTER_BOUND('',#86,.T.);
#57=EDGE_LOOP('',(#235,#236,#237,#238));
#58=EDGE_LOOP('',(#239,#240,#241,#242));
#59=EDGE_LOOP('',(#243));
#60=EDGE_LOOP('',(#244));
#61=EDGE_LOOP('',(#245,#246,#247,#248,#249,#250,#251,#252,#253,#254,#255,
#256));
#62=EDGE_LOOP('',(#257,#258,#259,#260));
#63=EDGE_LOOP('',(#261));
#64=EDGE_LOOP('',(#262));
#65=EDGE_LOOP('',(#263));
#66=EDGE_LOOP('',(#264));
#67=EDGE_LOOP('',(#265));
#68=EDGE_LOOP('',(#266));
#69=EDGE_LOOP('',(#267));
#70=EDGE_LOOP('',(#268));
#71=EDGE_LOOP('',(#269));
#72=EDGE_LOOP('',(#270));
#73=EDGE_LOOP('',(#271));
#74=EDGE_LOOP('',(#272));
#75=EDGE_LOOP('',(#273,#274,#275,#276));
#76=EDGE_LOOP('',(#277,#278,#279,#280));
#77=EDGE_LOOP('',(#281));
#78=EDGE_LOOP('',(#282));
#79=EDGE_LOOP('',(#283,#284,#285,#286));
#80=EDGE_LOOP('',(#287,#288,#289,#290));
#81=EDGE_LOOP('',(#291,#292,#293,#294));
#82=EDGE_LOOP('',(#295,#296,#297,#298));
#83=EDGE_LOOP('',(#299,#300,#301,#302));
#84=EDGE_LOOP('',(#303,#304,#305,#306));
#85=EDGE_LOOP('',(#307,#308,#309,#310));
#86=EDGE_LOOP('',(#311,#312,#313,#314,#315,#316,#317,#318,#319,#320,#321,
#322));
#87=LINE('',#487,#123);
#88=LINE('',#489,#124);
#89=LINE('',#491,#125);
#90=LINE('',#492,#126);
#91=LINE('',#495,#127);
#92=LINE('',#497,#128);
#93=LINE('',#498,#129);
#94=LINE('',#505,#130);
#95=LINE('',#507,#131);
#96=LINE('',#509,#132);
#97=LINE('',#511,#133);
#98=LINE('',#513,#134);
#99=LINE('',#515,#135);
#100=LINE('',#517,#136);
#101=LINE('',#519,#137);
#102=LINE('',#521,#138);
#103=LINE('',#522,#139);
#104=LINE('',#525,#140);
#105=LINE('',#526,#141);
#106=LINE('',#547,#142);
#107=LINE('',#549,#143);
#108=LINE('',#550,#144);
#109=LINE('',#553,#145);
#110=LINE('',#554,#146);
#111=LINE('',#557,#147);
#112=LINE('',#558,#148);
#113=LINE('',#561,#149);
#114=LINE('',#562,#150);
#115=LINE('',#565,#151);
#116=LINE('',#566,#152);
#117=LINE('',#569,#153);
#118=LINE('',#570,#154);
#119=LINE('',#572,#155);
#120=LINE('',#575,#156);
#121=LINE('',#576,#157);
#122=LINE('',#578,#158);
#123=VECTOR('',#393,1.4142135623731);
#124=VECTOR('',#394,108.);
#125=VECTOR('',#395,1.4142135623731);
#126=VECTOR('',#396,108.);
#127=VECTOR('',#399,28.);
#128=VECTOR('',#400,108.);
#129=VECTOR('',#401,28.);
#130=VECTOR('',#408,6.);
#131=VECTOR('',#409,5.);
#132=VECTOR('',#410,0.8);
#133=VECTOR('',#411,5.);
#134=VECTOR('',#412,20.);
#135=VECTOR('',#413,16.5);
#136=VECTOR('',#414,0.799999999999998);
#137=VECTOR('',#415,3.5);
#138=VECTOR('',#416,26.);
#139=VECTOR('',#417,1.4142135623731);
#140=VECTOR('',#420,108.);
#141=VECTOR('',#421,1.4142135623731);
#142=VECTOR('',#448,108.);
#143=VECTOR('',#449,20.);
#144=VECTOR('',#450,108.);
#145=VECTOR('',#453,108.);
#146=VECTOR('',#454,16.5);
#147=VECTOR('',#457,108.);
#148=VECTOR('',#458,26.);
#149=VECTOR('',#461,108.);
#150=VECTOR('',#462,5.);
#151=VECTOR('',#465,108.);
#152=VECTOR('',#466,0.8);
#153=VECTOR('',#469,108.);
#154=VECTOR('',#470,5.);
#155=VECTOR('',#473,6.);
#156=VECTOR('',#476,108.);
#157=VECTOR('',#477,3.5);
#158=VECTOR('',#480,0.799999999999998);
#159=VERTEX_POINT('',#485);
#160=VERTEX_POINT('',#486);
#161=VERTEX_POINT('',#488);
#162=VERTEX_POINT('',#490);
#163=VERTEX_POINT('',#494);
#164=VERTEX_POINT('',#496);
#165=VERTEX_POINT('',#499);
#166=VERTEX_POINT('',#501);
#167=VERTEX_POINT('',#504);
#168=VERTEX_POINT('',#506);
#169=VERTEX_POINT('',#508);
#170=VERTEX_POINT('',#510);
#171=VERTEX_POINT('',#512);
#172=VERTEX_POINT('',#514);
#173=VERTEX_POINT('',#516);
#174=VERTEX_POINT('',#518);
#175=VERTEX_POINT('',#520);
#176=VERTEX_POINT('',#524);
#177=VERTEX_POINT('',#528);
#178=VERTEX_POINT('',#530);
#179=VERTEX_POINT('',#534);
#180=VERTEX_POINT('',#537);
#181=VERTEX_POINT('',#539);
#182=VERTEX_POINT('',#543);
#183=VERTEX_POINT('',#546);
#184=VERTEX_POINT('',#548);
#185=VERTEX_POINT('',#552);
#186=VERTEX_POINT('',#556);
#187=VERTEX_POINT('',#560);
#188=VERTEX_POINT('',#564);
#189=VERTEX_POINT('',#568);
#190=VERTEX_POINT('',#574);
#191=EDGE_CURVE('',#159,#160,#87,.T.);
#192=EDGE_CURVE('',#160,#161,#88,.T.);
#193=EDGE_CURVE('',#161,#162,#89,.T.);
#194=EDGE_CURVE('',#162,#159,#90,.T.);
#195=EDGE_CURVE('',#160,#163,#91,.T.);
#196=EDGE_CURVE('',#164,#163,#92,.T.);
#197=EDGE_CURVE('',#164,#161,#93,.T.);
#198=EDGE_CURVE('',#165,#165,#29,.T.);
#199=EDGE_CURVE('',#166,#166,#30,.T.);
#200=EDGE_CURVE('',#167,#159,#94,.T.);
#201=EDGE_CURVE('',#168,#167,#95,.T.);
#202=EDGE_CURVE('',#169,#168,#96,.T.);
#203=EDGE_CURVE('',#170,#169,#97,.T.);
#204=EDGE_CURVE('',#171,#170,#98,.T.);
#205=EDGE_CURVE('',#172,#171,#99,.T.);
#206=EDGE_CURVE('',#173,#172,#100,.T.);
#207=EDGE_CURVE('',#174,#173,#101,.T.);
#208=EDGE_CURVE('',#175,#174,#102,.T.);
#209=EDGE_CURVE('',#163,#175,#103,.T.);
#210=EDGE_CURVE('',#175,#176,#104,.T.);
#211=EDGE_CURVE('',#176,#164,#105,.T.);
#212=EDGE_CURVE('',#177,#177,#31,.T.);
#213=EDGE_CURVE('',#178,#178,#32,.T.);
#214=EDGE_CURVE('',#179,#179,#33,.T.);
#215=EDGE_CURVE('',#180,#180,#34,.T.);
#216=EDGE_CURVE('',#181,#181,#35,.T.);
#217=EDGE_CURVE('',#182,#182,#36,.T.);
#218=EDGE_CURVE('',#183,#170,#106,.T.);
#219=EDGE_CURVE('',#183,#184,#107,.T.);
#220=EDGE_CURVE('',#184,#171,#108,.T.);
#221=EDGE_CURVE('',#185,#172,#109,.T.);
#222=EDGE_CURVE('',#184,#185,#110,.T.);
#223=EDGE_CURVE('',#186,#174,#111,.T.);
#224=EDGE_CURVE('',#186,#176,#112,.T.);
#225=EDGE_CURVE('',#187,#169,#113,.T.);
#226=EDGE_CURVE('',#187,#183,#114,.T.);
#227=EDGE_CURVE('',#188,#168,#115,.T.);
#228=EDGE_CURVE('',#188,#187,#116,.T.);
#229=EDGE_CURVE('',#189,#167,#117,.T.);
#230=EDGE_CURVE('',#189,#188,#118,.T.);
#231=EDGE_CURVE('',#162,#189,#119,.T.);
#232=EDGE_CURVE('',#190,#173,#120,.T.);
#233=EDGE_CURVE('',#190,#186,#121,.T.);
#234=EDGE_CURVE('',#185,#190,#122,.T.);
#235=ORIENTED_EDGE('',*,*,#191,.T.);
#236=ORIENTED_EDGE('',*,*,#192,.T.);
#237=ORIENTED_EDGE('',*,*,#193,.T.);
#238=ORIENTED_EDGE('',*,*,#194,.T.);
#239=ORIENTED_EDGE('',*,*,#192,.F.);
#240=ORIENTED_EDGE('',*,*,#195,.T.);
#241=ORIENTED_EDGE('',*,*,#196,.F.);
#242=ORIENTED_EDGE('',*,*,#197,.T.);
#243=ORIENTED_EDGE('',*,*,#198,.T.);
#244=ORIENTED_EDGE('',*,*,#199,.T.);
#245=ORIENTED_EDGE('',*,*,#191,.F.);
#246=ORIENTED_EDGE('',*,*,#200,.F.);
#247=ORIENTED_EDGE('',*,*,#201,.F.);
#248=ORIENTED_EDGE('',*,*,#202,.F.);
#249=ORIENTED_EDGE('',*,*,#203,.F.);
#250=ORIENTED_EDGE('',*,*,#204,.F.);
#251=ORIENTED_EDGE('',*,*,#205,.F.);
#252=ORIENTED_EDGE('',*,*,#206,.F.);
#253=ORIENTED_EDGE('',*,*,#207,.F.);
#254=ORIENTED_EDGE('',*,*,#208,.F.);
#255=ORIENTED_EDGE('',*,*,#209,.F.);
#256=ORIENTED_EDGE('',*,*,#195,.F.);
#257=ORIENTED_EDGE('',*,*,#209,.T.);
#258=ORIENTED_EDGE('',*,*,#210,.T.);
#259=ORIENTED_EDGE('',*,*,#211,.T.);
#260=ORIENTED_EDGE('',*,*,#196,.T.);
#261=ORIENTED_EDGE('',*,*,#212,.T.);
#262=ORIENTED_EDGE('',*,*,#213,.F.);
#263=ORIENTED_EDGE('',*,*,#198,.F.);
#264=ORIENTED_EDGE('',*,*,#212,.F.);
#265=ORIENTED_EDGE('',*,*,#214,.F.);
#266=ORIENTED_EDGE('',*,*,#213,.T.);
#267=ORIENTED_EDGE('',*,*,#215,.T.);
#268=ORIENTED_EDGE('',*,*,#216,.F.);
#269=ORIENTED_EDGE('',*,*,#199,.F.);
#270=ORIENTED_EDGE('',*,*,#215,.F.);
#271=ORIENTED_EDGE('',*,*,#217,.F.);
#272=ORIENTED_EDGE('',*,*,#216,.T.);
#273=ORIENTED_EDGE('',*,*,#218,.F.);
#274=ORIENTED_EDGE('',*,*,#219,.T.);
#275=ORIENTED_EDGE('',*,*,#220,.T.);
#276=ORIENTED_EDGE('',*,*,#204,.T.);
#277=ORIENTED_EDGE('',*,*,#221,.T.);
#278=ORIENTED_EDGE('',*,*,#205,.T.);
#279=ORIENTED_EDGE('',*,*,#220,.F.);
#280=ORIENTED_EDGE('',*,*,#222,.T.);
#281=ORIENTED_EDGE('',*,*,#214,.T.);
#282=ORIENTED_EDGE('',*,*,#217,.T.);
#283=ORIENTED_EDGE('',*,*,#210,.F.);
#284=ORIENTED_EDGE('',*,*,#208,.T.);
#285=ORIENTED_EDGE('',*,*,#223,.F.);
#286=ORIENTED_EDGE('',*,*,#224,.T.);
#287=ORIENTED_EDGE('',*,*,#218,.T.);
#288=ORIENTED_EDGE('',*,*,#203,.T.);
#289=ORIENTED_EDGE('',*,*,#225,.F.);
#290=ORIENTED_EDGE('',*,*,#226,.T.);
#291=ORIENTED_EDGE('',*,*,#225,.T.);
#292=ORIENTED_EDGE('',*,*,#202,.T.);
#293=ORIENTED_EDGE('',*,*,#227,.F.);
#294=ORIENTED_EDGE('',*,*,#228,.T.);
#295=ORIENTED_EDGE('',*,*,#201,.T.);
#296=ORIENTED_EDGE('',*,*,#229,.F.);
#297=ORIENTED_EDGE('',*,*,#230,.T.);
#298=ORIENTED_EDGE('',*,*,#227,.T.);
#299=ORIENTED_EDGE('',*,*,#194,.F.);
#300=ORIENTED_EDGE('',*,*,#231,.T.);
#301=ORIENTED_EDGE('',*,*,#229,.T.);
#302=ORIENTED_EDGE('',*,*,#200,.T.);
#303=ORIENTED_EDGE('',*,*,#207,.T.);
#304=ORIENTED_EDGE('',*,*,#232,.F.);
#305=ORIENTED_EDGE('',*,*,#233,.T.);
#306=ORIENTED_EDGE('',*,*,#223,.T.);
#307=ORIENTED_EDGE('',*,*,#206,.T.);
#308=ORIENTED_EDGE('',*,*,#221,.F.);
#309=ORIENTED_EDGE('',*,*,#234,.T.);
#310=ORIENTED_EDGE('',*,*,#232,.T.);
#311=ORIENTED_EDGE('',*,*,#193,.F.);
#312=ORIENTED_EDGE('',*,*,#197,.F.);
#313=ORIENTED_EDGE('',*,*,#211,.F.);
#314=ORIENTED_EDGE('',*,*,#224,.F.);
#315=ORIENTED_EDGE('',*,*,#233,.F.);
#316=ORIENTED_EDGE('',*,*,#234,.F.);
#317=ORIENTED_EDGE('',*,*,#222,.F.);
#318=ORIENTED_EDGE('',*,*,#219,.F.);
#319=ORIENTED_EDGE('',*,*,#226,.F.);
#320=ORIENTED_EDGE('',*,*,#228,.F.);
#321=ORIENTED_EDGE('',*,*,#230,.F.);
#322=ORIENTED_EDGE('',*,*,#231,.F.);
#323=PLANE('',#361);
#324=PLANE('',#362);
#325=PLANE('',#365);
#326=PLANE('',#366);
#327=PLANE('',#367);
#328=PLANE('',#373);
#329=PLANE('',#379);
#330=PLANE('',#380);
#331=PLANE('',#381);
#332=PLANE('',#382);
#333=PLANE('',#383);
#334=PLANE('',#384);
#335=PLANE('',#385);
#336=PLANE('',#386);
#337=PLANE('',#387);
#338=PLANE('',#388);
#339=ADVANCED_FACE('',(#37),#323,.T.);
#340=ADVANCED_FACE('',(#38,#19,#20),#324,.T.);
#341=ADVANCED_FACE('',(#39),#325,.T.);
#342=ADVANCED_FACE('',(#40),#326,.T.);
#343=ADVANCED_FACE('',(#41,#21),#327,.T.);
#344=ADVANCED_FACE('',(#42,#22),#15,.F.);
#345=ADVANCED_FACE('',(#43,#23),#16,.F.);
#346=ADVANCED_FACE('',(#44,#24),#328,.T.);
#347=ADVANCED_FACE('',(#45,#25),#17,.F.);
#348=ADVANCED_FACE('',(#46,#26),#18,.F.);
#349=ADVANCED_FACE('',(#47),#329,.T.);
#350=ADVANCED_FACE('',(#48,#27,#28),#330,.T.);
#351=ADVANCED_FACE('',(#49),#331,.T.);
#352=ADVANCED_FACE('',(#50),#332,.T.);
#353=ADVANCED_FACE('',(#51),#333,.T.);
#354=ADVANCED_FACE('',(#52),#334,.T.);
#355=ADVANCED_FACE('',(#53),#335,.T.);
#356=ADVANCED_FACE('',(#54),#336,.T.);
#357=ADVANCED_FACE('',(#55),#337,.T.);
#358=ADVANCED_FACE('',(#56),#338,.F.);
#359=CLOSED_SHELL('',(#339,#340,#341,#342,#343,#344,#345,#346,#347,#348,
#349,#350,#351,#352,#353,#354,#355,#356,#357,#358));
#360=AXIS2_PLACEMENT_3D('placement',#483,#389,#390);
#361=AXIS2_PLACEMENT_3D('',#484,#391,#392);
#362=AXIS2_PLACEMENT_3D('',#493,#397,#398);
#363=AXIS2_PLACEMENT_3D('',#500,#402,#403);
#364=AXIS2_PLACEMENT_3D('',#502,#404,#405);
#365=AXIS2_PLACEMENT_3D('',#503,#406,#407);
#366=AXIS2_PLACEMENT_3D('',#523,#418,#419);
#367=AXIS2_PLACEMENT_3D('',#527,#422,#423);
#368=AXIS2_PLACEMENT_3D('',#529,#424,#425);
#369=AXIS2_PLACEMENT_3D('',#531,#426,#427);
#370=AXIS2_PLACEMENT_3D('',#532,#428,#429);
#371=AXIS2_PLACEMENT_3D('',#533,#430,#431);
#372=AXIS2_PLACEMENT_3D('',#535,#432,#433);
#373=AXIS2_PLACEMENT_3D('',#536,#434,#435);
#374=AXIS2_PLACEMENT_3D('',#538,#436,#437);
#375=AXIS2_PLACEMENT_3D('',#540,#438,#439);
#376=AXIS2_PLACEMENT_3D('',#541,#440,#441);
#377=AXIS2_PLACEMENT_3D('',#542,#442,#443);
#378=AXIS2_PLACEMENT_3D('',#544,#444,#445);
#379=AXIS2_PLACEMENT_3D('',#545,#446,#447);
#380=AXIS2_PLACEMENT_3D('',#551,#451,#452);
#381=AXIS2_PLACEMENT_3D('',#555,#455,#456);
#382=AXIS2_PLACEMENT_3D('',#559,#459,#460);
#383=AXIS2_PLACEMENT_3D('',#563,#463,#464);
#384=AXIS2_PLACEMENT_3D('',#567,#467,#468);
#385=AXIS2_PLACEMENT_3D('',#571,#471,#472);
#386=AXIS2_PLACEMENT_3D('',#573,#474,#475);
#387=AXIS2_PLACEMENT_3D('',#577,#478,#479);
#388=AXIS2_PLACEMENT_3D('',#579,#481,#482);
#389=DIRECTION('axis',(0.,0.,1.));
#390=DIRECTION('refdir',(1.,0.,0.));
#391=DIRECTION('center_axis',(-0.707106781186548,0.707106781186548,0.));
#392=DIRECTION('ref_axis',(0.,0.,1.));
#393=DIRECTION('',(0.707106781186547,0.707106781186547,0.));
#394=DIRECTION('',(0.,0.,-1.));
#395=DIRECTION('',(-0.707106781186547,-0.707106781186547,0.));
#396=DIRECTION('',(0.,0.,1.));
#397=DIRECTION('center_axis',(0.,1.,0.));
#398=DIRECTION('ref_axis',(0.,0.,1.));
#399=DIRECTION('',(1.,7.40148683083438E-17,0.));
#400=DIRECTION('',(0.,0.,1.));
#401=DIRECTION('',(-1.,-7.40148683083438E-17,0.));
#402=DIRECTION('center_axis',(0.,-1.,0.));
#403=DIRECTION('ref_axis',(1.,0.,0.));
#404=DIRECTION('center_axis',(0.,-1.,0.));
#405=DIRECTION('ref_axis',(1.,0.,0.));
#406=DIRECTION('center_axis',(0.,0.,1.));
#407=DIRECTION('ref_axis',(1.,0.,0.));
#408=DIRECTION('',(0.,1.,0.));
#409=DIRECTION('',(-1.,-1.11022302462516E-16,0.));
#410=DIRECTION('',(-1.58603289232165E-16,-1.,0.));
#411=DIRECTION('',(-1.,0.,0.));
#412=DIRECTION('',(-1.48312236114048E-16,1.,0.));
#413=DIRECTION('',(-1.,-2.22044604925031E-16,0.));
#414=DIRECTION('',(0.,1.,0.));
#415=DIRECTION('',(-1.,-6.34413156928661E-16,0.));
#416=DIRECTION('',(0.,-1.,0.));
#417=DIRECTION('',(0.707106781186549,-0.707106781186546,0.));
#418=DIRECTION('center_axis',(0.707106781186546,0.707106781186549,0.));
#419=DIRECTION('ref_axis',(0.,0.,-1.));
#420=DIRECTION('',(0.,0.,-1.));
#421=DIRECTION('',(-0.707106781186549,0.707106781186546,0.));
#422=DIRECTION('center_axis',(0.,1.,0.));
#423=DIRECTION('ref_axis',(1.,0.,0.));
#424=DIRECTION('center_axis',(0.,1.,0.));
#425=DIRECTION('ref_axis',(1.,0.,0.));
#426=DIRECTION('center_axis',(0.,1.,0.));
#427=DIRECTION('ref_axis',(1.,0.,0.));
#428=DIRECTION('center_axis',(0.,1.,0.));
#429=DIRECTION('ref_axis',(1.,0.,0.));
#430=DIRECTION('center_axis',(0.,1.,0.));
#431=DIRECTION('ref_axis',(1.,0.,0.));
#432=DIRECTION('center_axis',(-2.22044604925031E-16,1.,0.));
#433=DIRECTION('ref_axis',(1.,0.,0.));
#434=DIRECTION('center_axis',(0.,1.,0.));
#435=DIRECTION('ref_axis',(1.,0.,0.));
#436=DIRECTION('center_axis',(0.,1.,0.));
#437=DIRECTION('ref_axis',(1.,0.,0.));
#438=DIRECTION('center_axis',(0.,1.,0.));
#439=DIRECTION('ref_axis',(1.,0.,0.));
#440=DIRECTION('center_axis',(0.,1.,0.));
#441=DIRECTION('ref_axis',(1.,0.,0.));
#442=DIRECTION('center_axis',(0.,1.,0.));
#443=DIRECTION('ref_axis',(1.,0.,0.));
#444=DIRECTION('center_axis',(-2.22044604925031E-16,1.,0.));
#445=DIRECTION('ref_axis',(1.,0.,0.));
#446=DIRECTION('center_axis',(-1.,-1.48312236114048E-16,0.));
#447=DIRECTION('ref_axis',(0.,0.,1.));
#448=DIRECTION('',(0.,0.,1.));
#449=DIRECTION('',(1.48312236114048E-16,-1.,0.));
#450=DIRECTION('',(0.,0.,1.));
#451=DIRECTION('center_axis',(2.22044604925031E-16,-1.,0.));
#452=DIRECTION('ref_axis',(0.,0.,-1.));
#453=DIRECTION('',(0.,0.,1.));
#454=DIRECTION('',(1.,2.22044604925031E-16,0.));
#455=DIRECTION('center_axis',(1.,0.,0.));
#456=DIRECTION('ref_axis',(0.,0.,-1.));
#457=DIRECTION('',(0.,0.,1.));
#458=DIRECTION('',(0.,1.,0.));
#459=DIRECTION('center_axis',(0.,-1.,0.));
#460=DIRECTION('ref_axis',(0.,0.,-1.));
#461=DIRECTION('',(0.,0.,1.));
#462=DIRECTION('',(1.,0.,0.));
#463=DIRECTION('center_axis',(1.,-1.58603289232165E-16,0.));
#464=DIRECTION('ref_axis',(0.,0.,-1.));
#465=DIRECTION('',(0.,0.,1.));
#466=DIRECTION('',(1.58603289232165E-16,1.,0.));
#467=DIRECTION('center_axis',(1.11022302462516E-16,-1.,0.));
#468=DIRECTION('ref_axis',(0.,0.,-1.));
#469=DIRECTION('',(0.,0.,1.));
#470=DIRECTION('',(1.,1.11022302462516E-16,0.));
#471=DIRECTION('center_axis',(-1.,0.,0.));
#472=DIRECTION('ref_axis',(0.,0.,1.));
#473=DIRECTION('',(0.,-1.,0.));
#474=DIRECTION('center_axis',(6.34413156928661E-16,-1.,0.));
#475=DIRECTION('ref_axis',(0.,0.,-1.));
#476=DIRECTION('',(0.,0.,1.));
#477=DIRECTION('',(1.,6.34413156928661E-16,0.));
#478=DIRECTION('center_axis',(-1.,0.,0.));
#479=DIRECTION('ref_axis',(0.,0.,1.));
#480=DIRECTION('',(0.,-1.,0.));
#481=DIRECTION('center_axis',(0.,0.,1.));
#482=DIRECTION('ref_axis',(1.,0.,0.));
#483=CARTESIAN_POINT('',(0.,0.,0.));
#484=CARTESIAN_POINT('Origin',(-13.5385009372723,9.9378446654631,0.));
#485=CARTESIAN_POINT('',(-14.0385009372723,9.4378446654631,108.));
#486=CARTESIAN_POINT('',(-13.0385009372723,10.4378446654631,108.));
#487=CARTESIAN_POINT('',(-13.1260009372723,10.3503446654631,108.));
#488=CARTESIAN_POINT('',(-13.0385009372723,10.4378446654631,0.));
#489=CARTESIAN_POINT('',(-13.0385009372723,10.4378446654631,0.));
#490=CARTESIAN_POINT('',(-14.0385009372723,9.4378446654631,0.));
#491=CARTESIAN_POINT('',(-13.1260009372723,10.3503446654631,0.));
#492=CARTESIAN_POINT('',(-14.0385009372723,9.4378446654631,0.));
#493=CARTESIAN_POINT('Origin',(-14.0385009372723,10.4378446654631,0.));
#494=CARTESIAN_POINT('',(14.9614990627277,10.4378446654631,108.));
#495=CARTESIAN_POINT('',(15.9614990627277,10.4378446654631,108.));
#496=CARTESIAN_POINT('',(14.9614990627277,10.4378446654631,0.));
#497=CARTESIAN_POINT('',(14.9614990627277,10.4378446654631,0.));
#498=CARTESIAN_POINT('',(15.9614990627277,10.4378446654631,0.));
#499=CARTESIAN_POINT('',(14.4614990627277,10.4378446654631,19.));
#500=CARTESIAN_POINT('Origin',(6.9614990627277,10.4378446654631,19.));
#501=CARTESIAN_POINT('',(14.4614990627277,10.4378446654631,89.));
#502=CARTESIAN_POINT('Origin',(6.9614990627277,10.4378446654631,89.));
#503=CARTESIAN_POINT('Origin',(14.2114990627277,-16.1621553345369,108.));
#504=CARTESIAN_POINT('',(-14.0385009372723,3.43784466546309,108.));
#505=CARTESIAN_POINT('',(-14.0385009372723,10.4378446654631,108.));
#506=CARTESIAN_POINT('',(-9.03850093727231,3.4378446654631,108.));
#507=CARTESIAN_POINT('',(-14.0385009372723,3.43784466546309,108.));
#508=CARTESIAN_POINT('',(-9.03850093727231,4.2378446654631,108.));
#509=CARTESIAN_POINT('',(-9.03850093727231,3.43784466546309,108.));
#510=CARTESIAN_POINT('',(-4.03850093727231,4.2378446654631,108.));
#511=CARTESIAN_POINT('',(-14.0385009372723,4.2378446654631,108.));
#512=CARTESIAN_POINT('',(-4.0385009372723,-15.7621553345369,108.));
#513=CARTESIAN_POINT('',(-4.03850093727231,10.4378446654631,108.));
#514=CARTESIAN_POINT('',(12.4614990627277,-15.7621553345369,108.));
#515=CARTESIAN_POINT('',(-4.0385009372723,-15.7621553345369,108.));
#516=CARTESIAN_POINT('',(12.4614990627277,-16.5621553345369,108.));
#517=CARTESIAN_POINT('',(12.4614990627277,-15.7621553345369,108.));
#518=CARTESIAN_POINT('',(15.9614990627277,-16.5621553345369,108.));
#519=CARTESIAN_POINT('',(12.4614990627277,-16.5621553345369,108.));
#520=CARTESIAN_POINT('',(15.9614990627277,9.4378446654631,108.));
#521=CARTESIAN_POINT('',(15.9614990627277,-16.5621553345369,108.));
#522=CARTESIAN_POINT('',(21.6739990627277,3.72534466546312,108.));
#523=CARTESIAN_POINT('Origin',(15.4614990627277,9.9378446654631,0.));
#524=CARTESIAN_POINT('',(15.9614990627277,9.4378446654631,0.));
#525=CARTESIAN_POINT('',(15.9614990627277,9.4378446654631,0.));
#526=CARTESIAN_POINT('',(21.6739990627277,3.72534466546312,0.));
#527=CARTESIAN_POINT('Origin',(6.9614990627277,1.4378446654631,19.));
#528=CARTESIAN_POINT('',(14.4614990627277,1.4378446654631,19.));
#529=CARTESIAN_POINT('Origin',(6.9614990627277,1.4378446654631,19.));
#530=CARTESIAN_POINT('',(2.7114990627277,1.43784466546309,19.));
#531=CARTESIAN_POINT('Origin',(6.9614990627277,1.43784466546309,19.));
#532=CARTESIAN_POINT('Origin',(6.9614990627277,5.9378446654631,19.));
#533=CARTESIAN_POINT('Origin',(6.9614990627277,-104.857428437991,19.));
#534=CARTESIAN_POINT('',(2.7114990627277,-15.7621553345369,19.));
#535=CARTESIAN_POINT('Origin',(6.9614990627277,-15.7621553345369,19.));
#536=CARTESIAN_POINT('Origin',(6.9614990627277,1.4378446654631,89.));
#537=CARTESIAN_POINT('',(14.4614990627277,1.4378446654631,89.));
#538=CARTESIAN_POINT('Origin',(6.9614990627277,1.4378446654631,89.));
#539=CARTESIAN_POINT('',(2.7114990627277,1.43784466546309,89.));
#540=CARTESIAN_POINT('Origin',(6.9614990627277,1.43784466546309,89.));
#541=CARTESIAN_POINT('Origin',(6.9614990627277,5.9378446654631,89.));
#542=CARTESIAN_POINT('Origin',(6.9614990627277,-104.857428437991,89.));
#543=CARTESIAN_POINT('',(2.7114990627277,-15.7621553345369,89.));
#544=CARTESIAN_POINT('Origin',(6.9614990627277,-15.7621553345369,89.));
#545=CARTESIAN_POINT('Origin',(-4.0385009372723,-15.7621553345369,0.));
#546=CARTESIAN_POINT('',(-4.03850093727231,4.2378446654631,0.));
#547=CARTESIAN_POINT('',(-4.03850093727231,4.23784466546309,0.));
#548=CARTESIAN_POINT('',(-4.0385009372723,-15.7621553345369,0.));
#549=CARTESIAN_POINT('',(-4.03850093727231,10.4378446654631,0.));
#550=CARTESIAN_POINT('',(-4.0385009372723,-15.7621553345369,0.));
#551=CARTESIAN_POINT('Origin',(15.9614990627277,-15.7621553345369,0.));
#552=CARTESIAN_POINT('',(12.4614990627277,-15.7621553345369,0.));
#553=CARTESIAN_POINT('',(12.4614990627277,-15.7621553345369,0.));
#554=CARTESIAN_POINT('',(-4.0385009372723,-15.7621553345369,0.));
#555=CARTESIAN_POINT('Origin',(15.9614990627277,10.4378446654631,0.));
#556=CARTESIAN_POINT('',(15.9614990627277,-16.5621553345369,0.));
#557=CARTESIAN_POINT('',(15.9614990627277,-16.5621553345369,0.));
#558=CARTESIAN_POINT('',(15.9614990627277,-16.5621553345369,0.));
#559=CARTESIAN_POINT('Origin',(15.9614990627277,4.2378446654631,0.));
#560=CARTESIAN_POINT('',(-9.03850093727231,4.2378446654631,0.));
#561=CARTESIAN_POINT('',(-9.0385009372723,4.2378446654631,0.));
#562=CARTESIAN_POINT('',(-14.0385009372723,4.2378446654631,0.));
#563=CARTESIAN_POINT('Origin',(-9.0385009372723,10.4378446654631,0.));
#564=CARTESIAN_POINT('',(-9.03850093727231,3.4378446654631,0.));
#565=CARTESIAN_POINT('',(-9.03850093727231,3.4378446654631,0.));
#566=CARTESIAN_POINT('',(-9.03850093727231,3.43784466546309,0.));
#567=CARTESIAN_POINT('Origin',(-9.03850093727231,3.4378446654631,0.));
#568=CARTESIAN_POINT('',(-14.0385009372723,3.43784466546309,0.));
#569=CARTESIAN_POINT('',(-14.0385009372723,3.43784466546309,0.));
#570=CARTESIAN_POINT('',(-14.0385009372723,3.43784466546309,0.));
#571=CARTESIAN_POINT('Origin',(-14.0385009372723,3.43784466546309,0.));
#572=CARTESIAN_POINT('',(-14.0385009372723,10.4378446654631,0.));
#573=CARTESIAN_POINT('Origin',(15.9614990627277,-16.5621553345369,0.));
#574=CARTESIAN_POINT('',(12.4614990627277,-16.5621553345369,0.));
#575=CARTESIAN_POINT('',(12.4614990627277,-16.5621553345369,0.));
#576=CARTESIAN_POINT('',(12.4614990627277,-16.5621553345369,0.));
#577=CARTESIAN_POINT('Origin',(12.4614990627277,-16.5621553345369,0.));
#578=CARTESIAN_POINT('',(12.4614990627277,-15.7621553345369,0.));
#579=CARTESIAN_POINT('Origin',(14.2114990627277,-16.1621553345369,0.));
#580=UNCERTAINTY_MEASURE_WITH_UNIT(LENGTH_MEASURE(0.01),#584,
'DISTANCE_ACCURACY_VALUE',
'Maximum model space distance between geometric entities at asserted c
onnectivities');
#581=UNCERTAINTY_MEASURE_WITH_UNIT(LENGTH_MEASURE(1.E-6),#584,
'DISTANCE_ACCURACY_VALUE',
'Maximum model space distance between geometric entities at asserted c
onnectivities');
#582=(
GEOMETRIC_REPRESENTATION_CONTEXT(3)
GLOBAL_UNCERTAINTY_ASSIGNED_CONTEXT((#580))
GLOBAL_UNIT_ASSIGNED_CONTEXT((#584,#587,#585))
REPRESENTATION_CONTEXT('','3D')
);
#583=(
GEOMETRIC_REPRESENTATION_CONTEXT(3)
GLOBAL_UNCERTAINTY_ASSIGNED_CONTEXT((#581))
GLOBAL_UNIT_ASSIGNED_CONTEXT((#584,#587,#585))
REPRESENTATION_CONTEXT('','3D')
);
#584=(
LENGTH_UNIT()
NAMED_UNIT(*)
SI_UNIT(.MILLI.,.METRE.)
);
#585=(
NAMED_UNIT(*)
SI_UNIT($,.STERADIAN.)
SOLID_ANGLE_UNIT()
);
#586=DIMENSIONAL_EXPONENTS(0.,0.,0.,0.,0.,0.,0.);
#587=(
CONVERSION_BASED_UNIT('degree',#589)
NAMED_UNIT(#586)
PLANE_ANGLE_UNIT()
);
#588=(
NAMED_UNIT(*)
PLANE_ANGLE_UNIT()
SI_UNIT($,.RADIAN.)
);
#589=PLANE_ANGLE_MEASURE_WITH_UNIT(PLANE_ANGLE_MEASURE(0.01745329252),#588);
#590=SHAPE_DEFINITION_REPRESENTATION(#591,#592);
#591=PRODUCT_DEFINITION_SHAPE('',$,#594);
#592=SHAPE_REPRESENTATION('',(#360),#582);
#593=PRODUCT_DEFINITION_CONTEXT('part definition',#598,'design');
#594=PRODUCT_DEFINITION('CAD_53051','CAD_53051',#595,#593);
#595=PRODUCT_DEFINITION_FORMATION('',$,#600);
#596=PRODUCT_RELATED_PRODUCT_CATEGORY('CAD_53051','CAD_53051',(#600));
#597=APPLICATION_PROTOCOL_DEFINITION('international standard',
'automotive_design',2009,#598);
#598=APPLICATION_CONTEXT(
'Core Data for Automotive Mechanical Design Process');
#599=PRODUCT_CONTEXT('part definition',#598,'mechanical');
#600=PRODUCT('CAD_53051','CAD_53051',$,(#599));
#601=PRESENTATION_STYLE_ASSIGNMENT((#602));
#602=SURFACE_STYLE_USAGE(.BOTH.,#603);
#603=SURFACE_SIDE_STYLE('',(#604));
#604=SURFACE_STYLE_FILL_AREA(#605);
#605=FILL_AREA_STYLE('',(#606));
#606=FILL_AREA_STYLE_COLOUR('',#607);
#607=COLOUR_RGB('',0.847058823529412,0.83921568627451,0.83921568627451);
ENDSEC;
END-ISO-10303-21;
