ISO-10303-21;
HEADER;
/* Generated by software containing ST-Developer
 * from STEP Tools, Inc. (www.steptools.com) 
 */

FILE_DESCRIPTION(
/* description */ (''),
/* implementation_level */ '2;1');

FILE_NAME(
/* name */ 
'X:\\VIRI ZA WEB\\CAD DATOTEKE\\LINEARNE ENOTE UNIMOTION\\DODATNA OPRE
MA ZA LINEARNE ENOTE\\POVEZOVALNI ELEMENTI\\PRITRDILNE SPONE\\PRITRDIL
NA SPONA CTJ 200 L= 78 M8 B\\izvoz\\CAD_53049.stp',
/* time_stamp */ '2016-04-09T08:32:33+02:00',
/* author */ ('Hypex'),
/* organization */ ('Hypex'),
/* preprocessor_version */ 'ST-DEVELOPER v16.1',
/* originating_system */ 'Autodesk Inventor 2016',
/* authorisation */ '');

FILE_SCHEMA (('AUTOMOTIVE_DESIGN { 1 0 10303 214 3 1 1 }'));
ENDSEC;

DATA;
#10=MECHANICAL_DESIGN_GEOMETRIC_PRESENTATION_REPRESENTATION('',(#13),#663);
#11=SHAPE_REPRESENTATION_RELATIONSHIP('SRR','None',#672,#12);
#12=ADVANCED_BREP_SHAPE_REPRESENTATION('',(#14),#662);
#13=STYLED_ITEM('',(#681),#14);
#14=MANIFOLD_SOLID_BREP('Solid1',#403);
#15=CYLINDRICAL_SURFACE('',#410,4.25);
#16=CYLINDRICAL_SURFACE('',#414,4.25);
#17=CYLINDRICAL_SURFACE('',#421,7.5);
#18=CYLINDRICAL_SURFACE('',#425,7.5);
#19=LINE('',#560,#55);
#20=LINE('',#562,#56);
#21=LINE('',#564,#57);
#22=LINE('',#565,#58);
#23=LINE('',#585,#59);
#24=LINE('',#587,#60);
#25=LINE('',#589,#61);
#26=LINE('',#590,#62);
#27=LINE('',#604,#63);
#28=LINE('',#606,#64);
#29=LINE('',#607,#65);
#30=LINE('',#610,#66);
#31=LINE('',#612,#67);
#32=LINE('',#614,#68);
#33=LINE('',#616,#69);
#34=LINE('',#617,#70);
#35=LINE('',#619,#71);
#36=LINE('',#621,#72);
#37=LINE('',#623,#73);
#38=LINE('',#624,#74);
#39=LINE('',#627,#75);
#40=LINE('',#628,#76);
#41=LINE('',#633,#77);
#42=LINE('',#634,#78);
#43=LINE('',#637,#79);
#44=LINE('',#638,#80);
#45=LINE('',#641,#81);
#46=LINE('',#642,#82);
#47=LINE('',#645,#83);
#48=LINE('',#646,#84);
#49=LINE('',#649,#85);
#50=LINE('',#650,#86);
#51=LINE('',#652,#87);
#52=LINE('',#655,#88);
#53=LINE('',#656,#89);
#54=LINE('',#658,#90);
#55=VECTOR('',#451,78.);
#56=VECTOR('',#452,16.5);
#57=VECTOR('',#453,78.);
#58=VECTOR('',#454,16.5);
#59=VECTOR('',#477,78.);
#60=VECTOR('',#478,28.);
#61=VECTOR('',#479,78.);
#62=VECTOR('',#480,28.);
#63=VECTOR('',#497,1.4142135623731);
#64=VECTOR('',#498,1.4142135623731);
#65=VECTOR('',#499,78.);
#66=VECTOR('',#502,6.);
#67=VECTOR('',#503,5.);
#68=VECTOR('',#504,0.8);
#69=VECTOR('',#505,5.);
#70=VECTOR('',#506,20.);
#71=VECTOR('',#507,0.799999999999998);
#72=VECTOR('',#508,3.5);
#73=VECTOR('',#509,26.);
#74=VECTOR('',#510,1.4142135623731);
#75=VECTOR('',#513,78.);
#76=VECTOR('',#514,1.4142135623731);
#77=VECTOR('',#521,78.);
#78=VECTOR('',#522,20.);
#79=VECTOR('',#525,78.);
#80=VECTOR('',#526,26.);
#81=VECTOR('',#529,78.);
#82=VECTOR('',#530,5.);
#83=VECTOR('',#533,78.);
#84=VECTOR('',#534,0.8);
#85=VECTOR('',#537,78.);
#86=VECTOR('',#538,5.);
#87=VECTOR('',#541,6.);
#88=VECTOR('',#544,78.);
#89=VECTOR('',#545,3.5);
#90=VECTOR('',#548,0.799999999999998);
#91=PLANE('',#408);
#92=PLANE('',#419);
#93=PLANE('',#427);
#94=PLANE('',#428);
#95=PLANE('',#429);
#96=PLANE('',#430);
#97=PLANE('',#431);
#98=PLANE('',#432);
#99=PLANE('',#433);
#100=PLANE('',#434);
#101=PLANE('',#435);
#102=PLANE('',#436);
#103=PLANE('',#437);
#104=PLANE('',#438);
#105=PLANE('',#439);
#106=PLANE('',#440);
#107=FACE_BOUND('',#146,.T.);
#108=FACE_BOUND('',#148,.T.);
#109=FACE_BOUND('',#149,.T.);
#110=FACE_BOUND('',#151,.T.);
#111=FACE_BOUND('',#153,.T.);
#112=FACE_BOUND('',#155,.T.);
#113=FACE_BOUND('',#157,.T.);
#114=FACE_BOUND('',#159,.T.);
#115=FACE_BOUND('',#160,.T.);
#116=FACE_BOUND('',#162,.T.);
#117=FACE_BOUND('',#164,.T.);
#118=FACE_BOUND('',#166,.T.);
#119=FACE_BOUND('',#171,.T.);
#120=FACE_BOUND('',#173,.T.);
#121=FACE_OUTER_BOUND('',#145,.T.);
#122=FACE_OUTER_BOUND('',#147,.T.);
#123=FACE_OUTER_BOUND('',#150,.T.);
#124=FACE_OUTER_BOUND('',#152,.T.);
#125=FACE_OUTER_BOUND('',#154,.T.);
#126=FACE_OUTER_BOUND('',#156,.T.);
#127=FACE_OUTER_BOUND('',#158,.T.);
#128=FACE_OUTER_BOUND('',#161,.T.);
#129=FACE_OUTER_BOUND('',#163,.T.);
#130=FACE_OUTER_BOUND('',#165,.T.);
#131=FACE_OUTER_BOUND('',#167,.T.);
#132=FACE_OUTER_BOUND('',#168,.T.);
#133=FACE_OUTER_BOUND('',#169,.T.);
#134=FACE_OUTER_BOUND('',#170,.T.);
#135=FACE_OUTER_BOUND('',#172,.T.);
#136=FACE_OUTER_BOUND('',#174,.T.);
#137=FACE_OUTER_BOUND('',#175,.T.);
#138=FACE_OUTER_BOUND('',#176,.T.);
#139=FACE_OUTER_BOUND('',#177,.T.);
#140=FACE_OUTER_BOUND('',#178,.T.);
#141=FACE_OUTER_BOUND('',#179,.T.);
#142=FACE_OUTER_BOUND('',#180,.T.);
#143=FACE_OUTER_BOUND('',#181,.T.);
#144=FACE_OUTER_BOUND('',#182,.T.);
#145=EDGE_LOOP('',(#279));
#146=EDGE_LOOP('',(#280));
#147=EDGE_LOOP('',(#281,#282,#283,#284));
#148=EDGE_LOOP('',(#285));
#149=EDGE_LOOP('',(#286));
#150=EDGE_LOOP('',(#287));
#151=EDGE_LOOP('',(#288));
#152=EDGE_LOOP('',(#289));
#153=EDGE_LOOP('',(#290));
#154=EDGE_LOOP('',(#291));
#155=EDGE_LOOP('',(#292));
#156=EDGE_LOOP('',(#293));
#157=EDGE_LOOP('',(#294));
#158=EDGE_LOOP('',(#295,#296,#297,#298));
#159=EDGE_LOOP('',(#299));
#160=EDGE_LOOP('',(#300));
#161=EDGE_LOOP('',(#301));
#162=EDGE_LOOP('',(#302));
#163=EDGE_LOOP('',(#303));
#164=EDGE_LOOP('',(#304));
#165=EDGE_LOOP('',(#305));
#166=EDGE_LOOP('',(#306));
#167=EDGE_LOOP('',(#307,#308,#309,#310));
#168=EDGE_LOOP('',(#311,#312,#313,#314,#315,#316,#317,#318,#319,#320,#321,
#322));
#169=EDGE_LOOP('',(#323,#324,#325,#326));
#170=EDGE_LOOP('',(#327));
#171=EDGE_LOOP('',(#328));
#172=EDGE_LOOP('',(#329));
#173=EDGE_LOOP('',(#330));
#174=EDGE_LOOP('',(#331,#332,#333,#334));
#175=EDGE_LOOP('',(#335,#336,#337,#338));
#176=EDGE_LOOP('',(#339,#340,#341,#342));
#177=EDGE_LOOP('',(#343,#344,#345,#346));
#178=EDGE_LOOP('',(#347,#348,#349,#350));
#179=EDGE_LOOP('',(#351,#352,#353,#354));
#180=EDGE_LOOP('',(#355,#356,#357,#358));
#181=EDGE_LOOP('',(#359,#360,#361,#362));
#182=EDGE_LOOP('',(#363,#364,#365,#366,#367,#368,#369,#370,#371,#372,#373,
#374));
#183=CIRCLE('',#406,4.25);
#184=CIRCLE('',#407,4.75);
#185=CIRCLE('',#409,4.75);
#186=CIRCLE('',#411,4.25);
#187=CIRCLE('',#413,4.25);
#188=CIRCLE('',#415,4.25);
#189=CIRCLE('',#417,7.5);
#190=CIRCLE('',#418,7.8);
#191=CIRCLE('',#420,7.8);
#192=CIRCLE('',#422,7.5);
#193=CIRCLE('',#424,7.5);
#194=CIRCLE('',#426,7.5);
#195=VERTEX_POINT('',#553);
#196=VERTEX_POINT('',#555);
#197=VERTEX_POINT('',#558);
#198=VERTEX_POINT('',#559);
#199=VERTEX_POINT('',#561);
#200=VERTEX_POINT('',#563);
#201=VERTEX_POINT('',#566);
#202=VERTEX_POINT('',#569);
#203=VERTEX_POINT('',#572);
#204=VERTEX_POINT('',#575);
#205=VERTEX_POINT('',#578);
#206=VERTEX_POINT('',#580);
#207=VERTEX_POINT('',#583);
#208=VERTEX_POINT('',#584);
#209=VERTEX_POINT('',#586);
#210=VERTEX_POINT('',#588);
#211=VERTEX_POINT('',#591);
#212=VERTEX_POINT('',#594);
#213=VERTEX_POINT('',#597);
#214=VERTEX_POINT('',#600);
#215=VERTEX_POINT('',#603);
#216=VERTEX_POINT('',#605);
#217=VERTEX_POINT('',#609);
#218=VERTEX_POINT('',#611);
#219=VERTEX_POINT('',#613);
#220=VERTEX_POINT('',#615);
#221=VERTEX_POINT('',#618);
#222=VERTEX_POINT('',#620);
#223=VERTEX_POINT('',#622);
#224=VERTEX_POINT('',#626);
#225=VERTEX_POINT('',#632);
#226=VERTEX_POINT('',#636);
#227=VERTEX_POINT('',#640);
#228=VERTEX_POINT('',#644);
#229=VERTEX_POINT('',#648);
#230=VERTEX_POINT('',#654);
#231=EDGE_CURVE('',#195,#195,#183,.T.);
#232=EDGE_CURVE('',#196,#196,#184,.T.);
#233=EDGE_CURVE('',#197,#198,#19,.T.);
#234=EDGE_CURVE('',#198,#199,#20,.T.);
#235=EDGE_CURVE('',#200,#199,#21,.T.);
#236=EDGE_CURVE('',#200,#197,#22,.T.);
#237=EDGE_CURVE('',#201,#201,#185,.T.);
#238=EDGE_CURVE('',#202,#202,#186,.T.);
#239=EDGE_CURVE('',#203,#203,#187,.T.);
#240=EDGE_CURVE('',#204,#204,#188,.T.);
#241=EDGE_CURVE('',#205,#205,#189,.T.);
#242=EDGE_CURVE('',#206,#206,#190,.T.);
#243=EDGE_CURVE('',#207,#208,#23,.T.);
#244=EDGE_CURVE('',#207,#209,#24,.T.);
#245=EDGE_CURVE('',#210,#209,#25,.T.);
#246=EDGE_CURVE('',#210,#208,#26,.T.);
#247=EDGE_CURVE('',#211,#211,#191,.T.);
#248=EDGE_CURVE('',#212,#212,#192,.T.);
#249=EDGE_CURVE('',#213,#213,#193,.T.);
#250=EDGE_CURVE('',#214,#214,#194,.T.);
#251=EDGE_CURVE('',#215,#207,#27,.T.);
#252=EDGE_CURVE('',#208,#216,#28,.T.);
#253=EDGE_CURVE('',#216,#215,#29,.T.);
#254=EDGE_CURVE('',#217,#215,#30,.T.);
#255=EDGE_CURVE('',#218,#217,#31,.T.);
#256=EDGE_CURVE('',#219,#218,#32,.T.);
#257=EDGE_CURVE('',#220,#219,#33,.T.);
#258=EDGE_CURVE('',#199,#220,#34,.T.);
#259=EDGE_CURVE('',#221,#198,#35,.T.);
#260=EDGE_CURVE('',#222,#221,#36,.T.);
#261=EDGE_CURVE('',#223,#222,#37,.T.);
#262=EDGE_CURVE('',#209,#223,#38,.T.);
#263=EDGE_CURVE('',#223,#224,#39,.T.);
#264=EDGE_CURVE('',#224,#210,#40,.T.);
#265=EDGE_CURVE('',#225,#220,#41,.T.);
#266=EDGE_CURVE('',#225,#200,#42,.T.);
#267=EDGE_CURVE('',#226,#222,#43,.T.);
#268=EDGE_CURVE('',#226,#224,#44,.T.);
#269=EDGE_CURVE('',#227,#219,#45,.T.);
#270=EDGE_CURVE('',#227,#225,#46,.T.);
#271=EDGE_CURVE('',#228,#218,#47,.T.);
#272=EDGE_CURVE('',#228,#227,#48,.T.);
#273=EDGE_CURVE('',#229,#217,#49,.T.);
#274=EDGE_CURVE('',#229,#228,#50,.T.);
#275=EDGE_CURVE('',#216,#229,#51,.T.);
#276=EDGE_CURVE('',#230,#221,#52,.T.);
#277=EDGE_CURVE('',#230,#226,#53,.T.);
#278=EDGE_CURVE('',#197,#230,#54,.T.);
#279=ORIENTED_EDGE('',*,*,#231,.T.);
#280=ORIENTED_EDGE('',*,*,#232,.T.);
#281=ORIENTED_EDGE('',*,*,#233,.T.);
#282=ORIENTED_EDGE('',*,*,#234,.T.);
#283=ORIENTED_EDGE('',*,*,#235,.F.);
#284=ORIENTED_EDGE('',*,*,#236,.T.);
#285=ORIENTED_EDGE('',*,*,#237,.F.);
#286=ORIENTED_EDGE('',*,*,#232,.F.);
#287=ORIENTED_EDGE('',*,*,#238,.T.);
#288=ORIENTED_EDGE('',*,*,#231,.F.);
#289=ORIENTED_EDGE('',*,*,#239,.T.);
#290=ORIENTED_EDGE('',*,*,#237,.T.);
#291=ORIENTED_EDGE('',*,*,#240,.T.);
#292=ORIENTED_EDGE('',*,*,#239,.F.);
#293=ORIENTED_EDGE('',*,*,#241,.T.);
#294=ORIENTED_EDGE('',*,*,#242,.T.);
#295=ORIENTED_EDGE('',*,*,#243,.F.);
#296=ORIENTED_EDGE('',*,*,#244,.T.);
#297=ORIENTED_EDGE('',*,*,#245,.F.);
#298=ORIENTED_EDGE('',*,*,#246,.T.);
#299=ORIENTED_EDGE('',*,*,#247,.F.);
#300=ORIENTED_EDGE('',*,*,#242,.F.);
#301=ORIENTED_EDGE('',*,*,#248,.F.);
#302=ORIENTED_EDGE('',*,*,#241,.F.);
#303=ORIENTED_EDGE('',*,*,#249,.T.);
#304=ORIENTED_EDGE('',*,*,#247,.T.);
#305=ORIENTED_EDGE('',*,*,#250,.F.);
#306=ORIENTED_EDGE('',*,*,#249,.F.);
#307=ORIENTED_EDGE('',*,*,#251,.T.);
#308=ORIENTED_EDGE('',*,*,#243,.T.);
#309=ORIENTED_EDGE('',*,*,#252,.T.);
#310=ORIENTED_EDGE('',*,*,#253,.T.);
#311=ORIENTED_EDGE('',*,*,#251,.F.);
#312=ORIENTED_EDGE('',*,*,#254,.F.);
#313=ORIENTED_EDGE('',*,*,#255,.F.);
#314=ORIENTED_EDGE('',*,*,#256,.F.);
#315=ORIENTED_EDGE('',*,*,#257,.F.);
#316=ORIENTED_EDGE('',*,*,#258,.F.);
#317=ORIENTED_EDGE('',*,*,#234,.F.);
#318=ORIENTED_EDGE('',*,*,#259,.F.);
#319=ORIENTED_EDGE('',*,*,#260,.F.);
#320=ORIENTED_EDGE('',*,*,#261,.F.);
#321=ORIENTED_EDGE('',*,*,#262,.F.);
#322=ORIENTED_EDGE('',*,*,#244,.F.);
#323=ORIENTED_EDGE('',*,*,#262,.T.);
#324=ORIENTED_EDGE('',*,*,#263,.T.);
#325=ORIENTED_EDGE('',*,*,#264,.T.);
#326=ORIENTED_EDGE('',*,*,#245,.T.);
#327=ORIENTED_EDGE('',*,*,#248,.T.);
#328=ORIENTED_EDGE('',*,*,#238,.F.);
#329=ORIENTED_EDGE('',*,*,#250,.T.);
#330=ORIENTED_EDGE('',*,*,#240,.F.);
#331=ORIENTED_EDGE('',*,*,#265,.F.);
#332=ORIENTED_EDGE('',*,*,#266,.T.);
#333=ORIENTED_EDGE('',*,*,#235,.T.);
#334=ORIENTED_EDGE('',*,*,#258,.T.);
#335=ORIENTED_EDGE('',*,*,#263,.F.);
#336=ORIENTED_EDGE('',*,*,#261,.T.);
#337=ORIENTED_EDGE('',*,*,#267,.F.);
#338=ORIENTED_EDGE('',*,*,#268,.T.);
#339=ORIENTED_EDGE('',*,*,#265,.T.);
#340=ORIENTED_EDGE('',*,*,#257,.T.);
#341=ORIENTED_EDGE('',*,*,#269,.F.);
#342=ORIENTED_EDGE('',*,*,#270,.T.);
#343=ORIENTED_EDGE('',*,*,#269,.T.);
#344=ORIENTED_EDGE('',*,*,#256,.T.);
#345=ORIENTED_EDGE('',*,*,#271,.F.);
#346=ORIENTED_EDGE('',*,*,#272,.T.);
#347=ORIENTED_EDGE('',*,*,#255,.T.);
#348=ORIENTED_EDGE('',*,*,#273,.F.);
#349=ORIENTED_EDGE('',*,*,#274,.T.);
#350=ORIENTED_EDGE('',*,*,#271,.T.);
#351=ORIENTED_EDGE('',*,*,#253,.F.);
#352=ORIENTED_EDGE('',*,*,#275,.T.);
#353=ORIENTED_EDGE('',*,*,#273,.T.);
#354=ORIENTED_EDGE('',*,*,#254,.T.);
#355=ORIENTED_EDGE('',*,*,#260,.T.);
#356=ORIENTED_EDGE('',*,*,#276,.F.);
#357=ORIENTED_EDGE('',*,*,#277,.T.);
#358=ORIENTED_EDGE('',*,*,#267,.T.);
#359=ORIENTED_EDGE('',*,*,#259,.T.);
#360=ORIENTED_EDGE('',*,*,#233,.F.);
#361=ORIENTED_EDGE('',*,*,#278,.T.);
#362=ORIENTED_EDGE('',*,*,#276,.T.);
#363=ORIENTED_EDGE('',*,*,#252,.F.);
#364=ORIENTED_EDGE('',*,*,#246,.F.);
#365=ORIENTED_EDGE('',*,*,#264,.F.);
#366=ORIENTED_EDGE('',*,*,#268,.F.);
#367=ORIENTED_EDGE('',*,*,#277,.F.);
#368=ORIENTED_EDGE('',*,*,#278,.F.);
#369=ORIENTED_EDGE('',*,*,#236,.F.);
#370=ORIENTED_EDGE('',*,*,#266,.F.);
#371=ORIENTED_EDGE('',*,*,#270,.F.);
#372=ORIENTED_EDGE('',*,*,#272,.F.);
#373=ORIENTED_EDGE('',*,*,#274,.F.);
#374=ORIENTED_EDGE('',*,*,#275,.F.);
#375=CONICAL_SURFACE('',#405,4.5,44.9999999999997);
#376=CONICAL_SURFACE('',#412,4.5,44.9999999999997);
#377=CONICAL_SURFACE('',#416,7.65,45.);
#378=CONICAL_SURFACE('',#423,7.65,45.);
#379=ADVANCED_FACE('',(#121,#107),#375,.F.);
#380=ADVANCED_FACE('',(#122,#108,#109),#91,.T.);
#381=ADVANCED_FACE('',(#123,#110),#15,.F.);
#382=ADVANCED_FACE('',(#124,#111),#376,.F.);
#383=ADVANCED_FACE('',(#125,#112),#16,.F.);
#384=ADVANCED_FACE('',(#126,#113),#377,.F.);
#385=ADVANCED_FACE('',(#127,#114,#115),#92,.T.);
#386=ADVANCED_FACE('',(#128,#116),#17,.F.);
#387=ADVANCED_FACE('',(#129,#117),#378,.F.);
#388=ADVANCED_FACE('',(#130,#118),#18,.F.);
#389=ADVANCED_FACE('',(#131),#93,.T.);
#390=ADVANCED_FACE('',(#132),#94,.T.);
#391=ADVANCED_FACE('',(#133),#95,.T.);
#392=ADVANCED_FACE('',(#134,#119),#96,.T.);
#393=ADVANCED_FACE('',(#135,#120),#97,.T.);
#394=ADVANCED_FACE('',(#136),#98,.T.);
#395=ADVANCED_FACE('',(#137),#99,.T.);
#396=ADVANCED_FACE('',(#138),#100,.T.);
#397=ADVANCED_FACE('',(#139),#101,.T.);
#398=ADVANCED_FACE('',(#140),#102,.T.);
#399=ADVANCED_FACE('',(#141),#103,.T.);
#400=ADVANCED_FACE('',(#142),#104,.T.);
#401=ADVANCED_FACE('',(#143),#105,.T.);
#402=ADVANCED_FACE('',(#144),#106,.F.);
#403=CLOSED_SHELL('',(#379,#380,#381,#382,#383,#384,#385,#386,#387,#388,
#389,#390,#391,#392,#393,#394,#395,#396,#397,#398,#399,#400,#401,#402));
#404=AXIS2_PLACEMENT_3D('placement',#551,#441,#442);
#405=AXIS2_PLACEMENT_3D('',#552,#443,#444);
#406=AXIS2_PLACEMENT_3D('',#554,#445,#446);
#407=AXIS2_PLACEMENT_3D('',#556,#447,#448);
#408=AXIS2_PLACEMENT_3D('',#557,#449,#450);
#409=AXIS2_PLACEMENT_3D('',#567,#455,#456);
#410=AXIS2_PLACEMENT_3D('',#568,#457,#458);
#411=AXIS2_PLACEMENT_3D('',#570,#459,#460);
#412=AXIS2_PLACEMENT_3D('',#571,#461,#462);
#413=AXIS2_PLACEMENT_3D('',#573,#463,#464);
#414=AXIS2_PLACEMENT_3D('',#574,#465,#466);
#415=AXIS2_PLACEMENT_3D('',#576,#467,#468);
#416=AXIS2_PLACEMENT_3D('',#577,#469,#470);
#417=AXIS2_PLACEMENT_3D('',#579,#471,#472);
#418=AXIS2_PLACEMENT_3D('',#581,#473,#474);
#419=AXIS2_PLACEMENT_3D('',#582,#475,#476);
#420=AXIS2_PLACEMENT_3D('',#592,#481,#482);
#421=AXIS2_PLACEMENT_3D('',#593,#483,#484);
#422=AXIS2_PLACEMENT_3D('',#595,#485,#486);
#423=AXIS2_PLACEMENT_3D('',#596,#487,#488);
#424=AXIS2_PLACEMENT_3D('',#598,#489,#490);
#425=AXIS2_PLACEMENT_3D('',#599,#491,#492);
#426=AXIS2_PLACEMENT_3D('',#601,#493,#494);
#427=AXIS2_PLACEMENT_3D('',#602,#495,#496);
#428=AXIS2_PLACEMENT_3D('',#608,#500,#501);
#429=AXIS2_PLACEMENT_3D('',#625,#511,#512);
#430=AXIS2_PLACEMENT_3D('',#629,#515,#516);
#431=AXIS2_PLACEMENT_3D('',#630,#517,#518);
#432=AXIS2_PLACEMENT_3D('',#631,#519,#520);
#433=AXIS2_PLACEMENT_3D('',#635,#523,#524);
#434=AXIS2_PLACEMENT_3D('',#639,#527,#528);
#435=AXIS2_PLACEMENT_3D('',#643,#531,#532);
#436=AXIS2_PLACEMENT_3D('',#647,#535,#536);
#437=AXIS2_PLACEMENT_3D('',#651,#539,#540);
#438=AXIS2_PLACEMENT_3D('',#653,#542,#543);
#439=AXIS2_PLACEMENT_3D('',#657,#546,#547);
#440=AXIS2_PLACEMENT_3D('',#659,#549,#550);
#441=DIRECTION('axis',(0.,0.,1.));
#442=DIRECTION('refdir',(1.,0.,0.));
#443=DIRECTION('center_axis',(0.,-1.,0.));
#444=DIRECTION('ref_axis',(1.,1.17190208154878E-16,0.));
#445=DIRECTION('center_axis',(-2.22044604925031E-16,1.,0.));
#446=DIRECTION('ref_axis',(1.,0.,0.));
#447=DIRECTION('center_axis',(2.22044604925031E-16,-1.,0.));
#448=DIRECTION('ref_axis',(1.,2.22044604925031E-16,0.));
#449=DIRECTION('center_axis',(2.22044604925031E-16,-1.,0.));
#450=DIRECTION('ref_axis',(0.,0.,-1.));
#451=DIRECTION('',(0.,0.,1.));
#452=DIRECTION('',(-1.,-2.22044604925031E-16,0.));
#453=DIRECTION('',(0.,0.,1.));
#454=DIRECTION('',(1.,2.22044604925031E-16,0.));
#455=DIRECTION('center_axis',(2.22044604925031E-16,-1.,0.));
#456=DIRECTION('ref_axis',(1.,2.22044604925031E-16,0.));
#457=DIRECTION('center_axis',(0.,1.,0.));
#458=DIRECTION('ref_axis',(1.,0.,0.));
#459=DIRECTION('center_axis',(0.,1.,0.));
#460=DIRECTION('ref_axis',(1.,0.,0.));
#461=DIRECTION('center_axis',(0.,-1.,0.));
#462=DIRECTION('ref_axis',(1.,1.17190208154878E-16,0.));
#463=DIRECTION('center_axis',(-2.22044604925031E-16,1.,0.));
#464=DIRECTION('ref_axis',(1.,0.,0.));
#465=DIRECTION('center_axis',(0.,1.,0.));
#466=DIRECTION('ref_axis',(1.,0.,0.));
#467=DIRECTION('center_axis',(0.,1.,0.));
#468=DIRECTION('ref_axis',(1.,0.,0.));
#469=DIRECTION('center_axis',(0.,1.,0.));
#470=DIRECTION('ref_axis',(-1.,0.,0.));
#471=DIRECTION('center_axis',(0.,-1.,0.));
#472=DIRECTION('ref_axis',(-1.,0.,0.));
#473=DIRECTION('center_axis',(0.,1.,0.));
#474=DIRECTION('ref_axis',(-1.,0.,0.));
#475=DIRECTION('center_axis',(0.,1.,0.));
#476=DIRECTION('ref_axis',(0.,0.,1.));
#477=DIRECTION('',(0.,0.,-1.));
#478=DIRECTION('',(1.,7.40148683083438E-17,0.));
#479=DIRECTION('',(0.,0.,1.));
#480=DIRECTION('',(-1.,-7.40148683083438E-17,0.));
#481=DIRECTION('center_axis',(0.,1.,0.));
#482=DIRECTION('ref_axis',(-1.,0.,0.));
#483=DIRECTION('center_axis',(0.,1.,0.));
#484=DIRECTION('ref_axis',(1.,0.,0.));
#485=DIRECTION('center_axis',(0.,1.,0.));
#486=DIRECTION('ref_axis',(1.,0.,0.));
#487=DIRECTION('center_axis',(0.,1.,0.));
#488=DIRECTION('ref_axis',(-1.,0.,0.));
#489=DIRECTION('center_axis',(0.,-1.,0.));
#490=DIRECTION('ref_axis',(-1.,0.,0.));
#491=DIRECTION('center_axis',(0.,1.,0.));
#492=DIRECTION('ref_axis',(1.,0.,0.));
#493=DIRECTION('center_axis',(0.,1.,0.));
#494=DIRECTION('ref_axis',(1.,0.,0.));
#495=DIRECTION('center_axis',(-0.707106781186548,0.707106781186548,0.));
#496=DIRECTION('ref_axis',(0.,0.,1.));
#497=DIRECTION('',(0.707106781186547,0.707106781186547,0.));
#498=DIRECTION('',(-0.707106781186547,-0.707106781186547,0.));
#499=DIRECTION('',(0.,0.,1.));
#500=DIRECTION('center_axis',(0.,0.,1.));
#501=DIRECTION('ref_axis',(1.,0.,0.));
#502=DIRECTION('',(0.,1.,0.));
#503=DIRECTION('',(-1.,-1.11022302462516E-16,0.));
#504=DIRECTION('',(-1.58603289232165E-16,-1.,0.));
#505=DIRECTION('',(-1.,0.,0.));
#506=DIRECTION('',(-1.48312236114048E-16,1.,0.));
#507=DIRECTION('',(0.,1.,0.));
#508=DIRECTION('',(-1.,-6.34413156928661E-16,0.));
#509=DIRECTION('',(0.,-1.,0.));
#510=DIRECTION('',(0.707106781186549,-0.707106781186546,0.));
#511=DIRECTION('center_axis',(0.707106781186546,0.707106781186549,0.));
#512=DIRECTION('ref_axis',(0.,0.,-1.));
#513=DIRECTION('',(0.,0.,-1.));
#514=DIRECTION('',(-0.707106781186549,0.707106781186546,0.));
#515=DIRECTION('center_axis',(0.,1.,0.));
#516=DIRECTION('ref_axis',(1.,0.,0.));
#517=DIRECTION('center_axis',(0.,1.,0.));
#518=DIRECTION('ref_axis',(1.,0.,0.));
#519=DIRECTION('center_axis',(-1.,-1.48312236114048E-16,0.));
#520=DIRECTION('ref_axis',(0.,0.,1.));
#521=DIRECTION('',(0.,0.,1.));
#522=DIRECTION('',(1.48312236114048E-16,-1.,0.));
#523=DIRECTION('center_axis',(1.,0.,0.));
#524=DIRECTION('ref_axis',(0.,0.,-1.));
#525=DIRECTION('',(0.,0.,1.));
#526=DIRECTION('',(0.,1.,0.));
#527=DIRECTION('center_axis',(0.,-1.,0.));
#528=DIRECTION('ref_axis',(0.,0.,-1.));
#529=DIRECTION('',(0.,0.,1.));
#530=DIRECTION('',(1.,0.,0.));
#531=DIRECTION('center_axis',(1.,-1.58603289232165E-16,0.));
#532=DIRECTION('ref_axis',(0.,0.,-1.));
#533=DIRECTION('',(0.,0.,1.));
#534=DIRECTION('',(1.58603289232165E-16,1.,0.));
#535=DIRECTION('center_axis',(1.11022302462516E-16,-1.,0.));
#536=DIRECTION('ref_axis',(0.,0.,-1.));
#537=DIRECTION('',(0.,0.,1.));
#538=DIRECTION('',(1.,1.11022302462516E-16,0.));
#539=DIRECTION('center_axis',(-1.,0.,0.));
#540=DIRECTION('ref_axis',(0.,0.,1.));
#541=DIRECTION('',(0.,-1.,0.));
#542=DIRECTION('center_axis',(6.34413156928661E-16,-1.,0.));
#543=DIRECTION('ref_axis',(0.,0.,-1.));
#544=DIRECTION('',(0.,0.,1.));
#545=DIRECTION('',(1.,6.34413156928661E-16,0.));
#546=DIRECTION('center_axis',(-1.,0.,0.));
#547=DIRECTION('ref_axis',(0.,0.,1.));
#548=DIRECTION('',(0.,-1.,0.));
#549=DIRECTION('center_axis',(0.,0.,1.));
#550=DIRECTION('ref_axis',(1.,0.,0.));
#551=CARTESIAN_POINT('',(0.,0.,0.));
#552=CARTESIAN_POINT('Origin',(6.9614990627277,-15.5121553345369,19.));
#553=CARTESIAN_POINT('',(2.7114990627277,-15.2621553345369,19.));
#554=CARTESIAN_POINT('Origin',(6.9614990627277,-15.2621553345369,19.));
#555=CARTESIAN_POINT('',(2.2114990627277,-15.7621553345369,19.));
#556=CARTESIAN_POINT('Origin',(6.9614990627277,-15.7621553345369,19.));
#557=CARTESIAN_POINT('Origin',(15.9614990627277,-15.7621553345369,0.));
#558=CARTESIAN_POINT('',(12.4614990627277,-15.7621553345369,0.));
#559=CARTESIAN_POINT('',(12.4614990627277,-15.7621553345369,78.));
#560=CARTESIAN_POINT('',(12.4614990627277,-15.7621553345369,0.));
#561=CARTESIAN_POINT('',(-4.0385009372723,-15.7621553345369,78.));
#562=CARTESIAN_POINT('',(-4.0385009372723,-15.7621553345369,78.));
#563=CARTESIAN_POINT('',(-4.0385009372723,-15.7621553345369,0.));
#564=CARTESIAN_POINT('',(-4.0385009372723,-15.7621553345369,0.));
#565=CARTESIAN_POINT('',(-4.0385009372723,-15.7621553345369,0.));
#566=CARTESIAN_POINT('',(2.2114990627277,-15.7621553345369,59.));
#567=CARTESIAN_POINT('Origin',(6.9614990627277,-15.7621553345369,59.));
#568=CARTESIAN_POINT('Origin',(6.9614990627277,-77.3858423443636,19.));
#569=CARTESIAN_POINT('',(2.7114990627277,1.43784466546309,19.));
#570=CARTESIAN_POINT('Origin',(6.9614990627277,1.43784466546309,19.));
#571=CARTESIAN_POINT('Origin',(6.9614990627277,-15.5121553345369,59.));
#572=CARTESIAN_POINT('',(2.7114990627277,-15.2621553345369,59.));
#573=CARTESIAN_POINT('Origin',(6.9614990627277,-15.2621553345369,59.));
#574=CARTESIAN_POINT('Origin',(6.9614990627277,-77.3858423443636,59.));
#575=CARTESIAN_POINT('',(2.7114990627277,1.43784466546309,59.));
#576=CARTESIAN_POINT('Origin',(6.9614990627277,1.43784466546309,59.));
#577=CARTESIAN_POINT('Origin',(6.9614990627277,10.2878446654631,19.));
#578=CARTESIAN_POINT('',(14.4614990627277,10.1378446654631,19.));
#579=CARTESIAN_POINT('Origin',(6.9614990627277,10.1378446654631,19.));
#580=CARTESIAN_POINT('',(14.7614990627277,10.4378446654631,19.));
#581=CARTESIAN_POINT('Origin',(6.9614990627277,10.4378446654631,19.));
#582=CARTESIAN_POINT('Origin',(-14.0385009372723,10.4378446654631,0.));
#583=CARTESIAN_POINT('',(-13.0385009372723,10.4378446654631,78.));
#584=CARTESIAN_POINT('',(-13.0385009372723,10.4378446654631,0.));
#585=CARTESIAN_POINT('',(-13.0385009372723,10.4378446654631,0.));
#586=CARTESIAN_POINT('',(14.9614990627277,10.4378446654631,78.));
#587=CARTESIAN_POINT('',(15.9614990627277,10.4378446654631,78.));
#588=CARTESIAN_POINT('',(14.9614990627277,10.4378446654631,0.));
#589=CARTESIAN_POINT('',(14.9614990627277,10.4378446654631,0.));
#590=CARTESIAN_POINT('',(15.9614990627277,10.4378446654631,0.));
#591=CARTESIAN_POINT('',(14.7614990627277,10.4378446654631,59.));
#592=CARTESIAN_POINT('Origin',(6.9614990627277,10.4378446654631,59.));
#593=CARTESIAN_POINT('Origin',(6.9614990627277,5.9378446654631,19.));
#594=CARTESIAN_POINT('',(14.4614990627277,1.4378446654631,19.));
#595=CARTESIAN_POINT('Origin',(6.9614990627277,1.4378446654631,19.));
#596=CARTESIAN_POINT('Origin',(6.9614990627277,10.2878446654631,59.));
#597=CARTESIAN_POINT('',(14.4614990627277,10.1378446654631,59.));
#598=CARTESIAN_POINT('Origin',(6.9614990627277,10.1378446654631,59.));
#599=CARTESIAN_POINT('Origin',(6.9614990627277,5.9378446654631,59.));
#600=CARTESIAN_POINT('',(14.4614990627277,1.4378446654631,59.));
#601=CARTESIAN_POINT('Origin',(6.9614990627277,1.4378446654631,59.));
#602=CARTESIAN_POINT('Origin',(-13.5385009372723,9.9378446654631,0.));
#603=CARTESIAN_POINT('',(-14.0385009372723,9.4378446654631,78.));
#604=CARTESIAN_POINT('',(-13.1260009372723,10.3503446654631,78.));
#605=CARTESIAN_POINT('',(-14.0385009372723,9.4378446654631,0.));
#606=CARTESIAN_POINT('',(-13.1260009372723,10.3503446654631,0.));
#607=CARTESIAN_POINT('',(-14.0385009372723,9.4378446654631,0.));
#608=CARTESIAN_POINT('Origin',(14.2114990627277,-16.1621553345369,78.));
#609=CARTESIAN_POINT('',(-14.0385009372723,3.43784466546309,78.));
#610=CARTESIAN_POINT('',(-14.0385009372723,10.4378446654631,78.));
#611=CARTESIAN_POINT('',(-9.03850093727231,3.4378446654631,78.));
#612=CARTESIAN_POINT('',(-14.0385009372723,3.43784466546309,78.));
#613=CARTESIAN_POINT('',(-9.03850093727231,4.2378446654631,78.));
#614=CARTESIAN_POINT('',(-9.03850093727231,3.43784466546309,78.));
#615=CARTESIAN_POINT('',(-4.03850093727231,4.2378446654631,78.));
#616=CARTESIAN_POINT('',(-14.0385009372723,4.2378446654631,78.));
#617=CARTESIAN_POINT('',(-4.03850093727231,10.4378446654631,78.));
#618=CARTESIAN_POINT('',(12.4614990627277,-16.5621553345369,78.));
#619=CARTESIAN_POINT('',(12.4614990627277,-15.7621553345369,78.));
#620=CARTESIAN_POINT('',(15.9614990627277,-16.5621553345369,78.));
#621=CARTESIAN_POINT('',(12.4614990627277,-16.5621553345369,78.));
#622=CARTESIAN_POINT('',(15.9614990627277,9.4378446654631,78.));
#623=CARTESIAN_POINT('',(15.9614990627277,-16.5621553345369,78.));
#624=CARTESIAN_POINT('',(21.6739990627277,3.72534466546312,78.));
#625=CARTESIAN_POINT('Origin',(15.4614990627277,9.9378446654631,0.));
#626=CARTESIAN_POINT('',(15.9614990627277,9.4378446654631,0.));
#627=CARTESIAN_POINT('',(15.9614990627277,9.4378446654631,0.));
#628=CARTESIAN_POINT('',(21.6739990627277,3.72534466546312,0.));
#629=CARTESIAN_POINT('Origin',(6.9614990627277,1.4378446654631,19.));
#630=CARTESIAN_POINT('Origin',(6.9614990627277,1.4378446654631,59.));
#631=CARTESIAN_POINT('Origin',(-4.0385009372723,-15.7621553345369,0.));
#632=CARTESIAN_POINT('',(-4.03850093727231,4.2378446654631,0.));
#633=CARTESIAN_POINT('',(-4.03850093727231,4.23784466546309,0.));
#634=CARTESIAN_POINT('',(-4.03850093727231,10.4378446654631,0.));
#635=CARTESIAN_POINT('Origin',(15.9614990627277,10.4378446654631,0.));
#636=CARTESIAN_POINT('',(15.9614990627277,-16.5621553345369,0.));
#637=CARTESIAN_POINT('',(15.9614990627277,-16.5621553345369,0.));
#638=CARTESIAN_POINT('',(15.9614990627277,-16.5621553345369,0.));
#639=CARTESIAN_POINT('Origin',(15.9614990627277,4.2378446654631,0.));
#640=CARTESIAN_POINT('',(-9.03850093727231,4.2378446654631,0.));
#641=CARTESIAN_POINT('',(-9.0385009372723,4.2378446654631,0.));
#642=CARTESIAN_POINT('',(-14.0385009372723,4.2378446654631,0.));
#643=CARTESIAN_POINT('Origin',(-9.0385009372723,10.4378446654631,0.));
#644=CARTESIAN_POINT('',(-9.03850093727231,3.4378446654631,0.));
#645=CARTESIAN_POINT('',(-9.03850093727231,3.4378446654631,0.));
#646=CARTESIAN_POINT('',(-9.03850093727231,3.43784466546309,0.));
#647=CARTESIAN_POINT('Origin',(-9.03850093727231,3.4378446654631,0.));
#648=CARTESIAN_POINT('',(-14.0385009372723,3.43784466546309,0.));
#649=CARTESIAN_POINT('',(-14.0385009372723,3.43784466546309,0.));
#650=CARTESIAN_POINT('',(-14.0385009372723,3.43784466546309,0.));
#651=CARTESIAN_POINT('Origin',(-14.0385009372723,3.43784466546309,0.));
#652=CARTESIAN_POINT('',(-14.0385009372723,10.4378446654631,0.));
#653=CARTESIAN_POINT('Origin',(15.9614990627277,-16.5621553345369,0.));
#654=CARTESIAN_POINT('',(12.4614990627277,-16.5621553345369,0.));
#655=CARTESIAN_POINT('',(12.4614990627277,-16.5621553345369,0.));
#656=CARTESIAN_POINT('',(12.4614990627277,-16.5621553345369,0.));
#657=CARTESIAN_POINT('Origin',(12.4614990627277,-16.5621553345369,0.));
#658=CARTESIAN_POINT('',(12.4614990627277,-15.7621553345369,0.));
#659=CARTESIAN_POINT('Origin',(14.2114990627277,-16.1621553345369,0.));
#660=UNCERTAINTY_MEASURE_WITH_UNIT(LENGTH_MEASURE(0.01),#664,
'DISTANCE_ACCURACY_VALUE',
'Maximum model space distance between geometric entities at asserted c
onnectivities');
#661=UNCERTAINTY_MEASURE_WITH_UNIT(LENGTH_MEASURE(1.E-6),#664,
'DISTANCE_ACCURACY_VALUE',
'Maximum model space distance between geometric entities at asserted c
onnectivities');
#662=(
GEOMETRIC_REPRESENTATION_CONTEXT(3)
GLOBAL_UNCERTAINTY_ASSIGNED_CONTEXT((#660))
GLOBAL_UNIT_ASSIGNED_CONTEXT((#664,#667,#665))
REPRESENTATION_CONTEXT('','3D')
);
#663=(
GEOMETRIC_REPRESENTATION_CONTEXT(3)
GLOBAL_UNCERTAINTY_ASSIGNED_CONTEXT((#661))
GLOBAL_UNIT_ASSIGNED_CONTEXT((#664,#667,#665))
REPRESENTATION_CONTEXT('','3D')
);
#664=(
LENGTH_UNIT()
NAMED_UNIT(*)
SI_UNIT(.MILLI.,.METRE.)
);
#665=(
NAMED_UNIT(*)
SI_UNIT($,.STERADIAN.)
SOLID_ANGLE_UNIT()
);
#666=DIMENSIONAL_EXPONENTS(0.,0.,0.,0.,0.,0.,0.);
#667=(
CONVERSION_BASED_UNIT('degree',#669)
NAMED_UNIT(#666)
PLANE_ANGLE_UNIT()
);
#668=(
NAMED_UNIT(*)
PLANE_ANGLE_UNIT()
SI_UNIT($,.RADIAN.)
);
#669=PLANE_ANGLE_MEASURE_WITH_UNIT(PLANE_ANGLE_MEASURE(0.01745329252),#668);
#670=SHAPE_DEFINITION_REPRESENTATION(#671,#672);
#671=PRODUCT_DEFINITION_SHAPE('',$,#674);
#672=SHAPE_REPRESENTATION('',(#404),#662);
#673=PRODUCT_DEFINITION_CONTEXT('part definition',#678,'design');
#674=PRODUCT_DEFINITION('CAD_53049','CAD_53049',#675,#673);
#675=PRODUCT_DEFINITION_FORMATION('',$,#680);
#676=PRODUCT_RELATED_PRODUCT_CATEGORY('CAD_53049','CAD_53049',(#680));
#677=APPLICATION_PROTOCOL_DEFINITION('international standard',
'automotive_design',2009,#678);
#678=APPLICATION_CONTEXT(
'Core Data for Automotive Mechanical Design Process');
#679=PRODUCT_CONTEXT('part definition',#678,'mechanical');
#680=PRODUCT('CAD_53049','CAD_53049',$,(#679));
#681=PRESENTATION_STYLE_ASSIGNMENT((#682));
#682=SURFACE_STYLE_USAGE(.BOTH.,#683);
#683=SURFACE_SIDE_STYLE('',(#684));
#684=SURFACE_STYLE_FILL_AREA(#685);
#685=FILL_AREA_STYLE('',(#686));
#686=FILL_AREA_STYLE_COLOUR('',#687);
#687=COLOUR_RGB('',0.847058823529412,0.83921568627451,0.83921568627451);
ENDSEC;
END-ISO-10303-21;
